THE ARRANGEMENT OF THE QURAN

The arrangement of the chapters of the Quran (in Arabic, chapters is surah) has been criticized by the orientalists. They claimed that the arrangement of the chapters of the Quran is wrong and it is supposed to be arranged chronologically, and hence they claimed the first surah is supposed to be surah al-Alaq. So many accusations have been made against the Quran. The accusations against the Quran can easily be repelled using the statistical method. Using the Microsoft Excel, the number of the verses of every chapter of the Quran are keyed in into the Microsoft excel beginning with the last chapter i.e. until to the first chapter. The number of verses from the last chapter to the first chapter are:

Chap. no of verse - Chapt. No of verse
114------6----------97-------5----------79---------46
113------5----------96-------19---------78---------40
112------4----------95-------8----------77---------50
110------3----------93-------11---------76---------31
109------6----------92-------21---------75--------40
108------3----------90-------15---------74--------56
107------7----------89-------20---------73--------20
106------4----------88-------30---------72--------28
105------5----------87-------26---------71--------28
104------9----------86-------19---------70--------44
103------3----------85-------17---------69--------52
102------8----------84-------22---------68--------52
101------11---------83-------25---------67--------30
100----- 11---------82-------36----------66--------12
99--------8----------81-------19---------65--------12
98--------8----------80-------42---------64--------18

The red colored numbers are the chapter numbers, the black colored numbers are the number of verses for the corresponding chapter number. When the number of verses were keyed in into the Microsoft excel, and the Microsoft Excel was commanded to create a scatter graph, the scattered graph was formed. The X axis is the chapter number from 1st chapter to 114th chapter and the Y axis is the number of verses from 3 verses up to 286 verses. If the coordinates are connected using the standard rule, a modern Arabic calligraphy of the word Allah is formed. Could it be just by coincident that the calligraphy of the word Allah is formed? If you are still interested in knowing more, keep on reading the next by going back to my profile and click the blog the unalterable quran


6 comments:

  1. Assalamualaikum,
    En.Mohd Arip, as an ex-SMSJ student (your far junior), I am very impressed & proud of your ability & efforts and these findings to me, is such a wonderful discovery of how wonderful the quran really is. Keep it up and may Allah bless you. Wassalam.

    ReplyDelete
  2. Apologize,
    I am earlier supposed to type Dr.Mohd Arip instead of En.Mohd Arip..pardon me.

    ReplyDelete
  3. Yes, now I see what U mean in your lecture in radio IKIM currently aired every tuesday evening. AMAAAAZINGGGG

    ReplyDelete
  4. Keep up the good job Dr. Your knowledge given by ALLAH swt is precise and beautiful

    ReplyDelete
  5. wow,it is amazing,now i got a clearer vision about why al-quran cannot be alternated

    ReplyDelete
  6. there is no God but Allah and Muhammad is the Messenger of Allah

    ReplyDelete